Abbie Ozard - Pink Sky Endless Summer

Risky Adidaya - October 18, 2021

Detail Lagu

Penyanyi
:
Judul Lagu
:
Abbie Ozard - Pink Sky Endless Summer
Genre
:
Pop

Intro
 
 
e|--12-----10-----10-----8------|
B|--10-x7--10-x8---8-x7--8-x7---|
G|--10-----10------9-----9------|   x2
D|------------------------------|
A|------------------------------|
E|------------------------------|
 
[Verse]
 
Never   thought   about   anyone   like   I   thought   about   you
But   every   time   you   say   I’m   the   only   one,   that   wasn’t   true
 
 
[Pre-Chorus]
 
You   can   look   me   in   the   eye   and   tell   me   everything   is   fine
Carry   on   regardless,   tell   me   that   you   could   be   mine
Waste   time,        dizzy   smiles
 
 
[Chorus]
 
   Endless   summer,   you   said   there’s   no   other
   But   you   left   me   for   late   nights   under   a   pink   sky
   If   I’m   daydreaming,   always   you   I’m   seeing
   But   you   left   me   for   late   nights   under   a   pink   sky
 
e|--12-----10-----10-----8------|
B|--10-x7--10-x8---8-x7--8-x7---|
G|--10-----10------9-----9------|   x2
D|------------------------------|
A|------------------------------|
E|------------------------------|
 
[Verse]
 
We   drive   into   a   car   park,   it’s   nearly   nine,   yeah,   I’m   in   blue
Can   we   not   stay   here   until   it’s   four   or   five,   cuz   I’ve   missed   you
 
[Pre-Chorus]
 
I   can   see   you   wanna   leave   but   it’s   you   that   makes   me   breath
When   I’m   feeling   dizzy,   yeah,   it’s   you   I   wanna   see
But   that’s   fine,   stuck   on   my   mind
 
 
[Chorus]
 
   Endless   summer,   you   said   there’s   no   other
   But   you   left   me   for   late   nights   under   a   pink   sky
   If   I’m   daydreaming,   always   you   I’m   seeing
   But   you   left   me   for   late   nights   under   a   pink   sky
 
e|--12-----10-----10-----8------|
B|--10-x7--10-x8---8-x7--8-x7---|
G|--10-----10------9-----9------|
D|------------------------------|
A|------------------------------|
E|------------------------------|
                                Under   a   pink   sky       x2
 
 
e|--12-----16-----10----12------|
B|--10-x7--10-x8---8-x7--8-x7---|
G|--10-----10------9-----9------|
D|------------------------------|
A|------------------------------|
E|------------------------------|
                                Under   a   pink   sky
 
 
e|--12-----10-----10-----|
B|--10-x7--10-x8---8-x8--|
G|--10-----10------9-----|
D|-----------------------|
A|-----------------------|
E|-----------------------|
 
[Chorus]
 
N.C.
play   this   once   over   each   line   of   the   final   chorus
 
e|--12-----10-----10-----8------|
B|--10-x7--10-x8---8-x7--8-x7---|
G|--10-----10------9-----9------|
D|------------------------------|
A|------------------------------|
E|------------------------------|
 
 
 
   Endless   summer,   you   said   there’s   no   other
   But   you   left   me   for   late   nights   under   a   pink   sky
   If   I’m   daydreaming,   always   you   I’m   seeing
   But   you   left   me   for   late   nights   under   a   pink   sky
 
[Outro]
 
N.C.
Play   the   same   thing   twice   over   this   chord   progression:
 

Editor: Risky Adidaya