Choir Vandals - An Honest Conversation

Risky Adidaya - November 10, 2021

Detail Lagu

Penyanyi
:
Judul Lagu
:
Choir Vandals - An Honest Conversation
Genre
:
Pop

Verse
 
e|---5---|---2---|---7---|---10---|---4---|
B|---5---|---2---|---7---|---10---|---5---|
G|---6---|---2---|---7---|---11---|---6---|
D|---7---|---4---|---9---|---12---|---6---|
A|---7---|---4---|---9---|---12---|---4---|
E|---5---|---2---|---7---|---10---|---x---|
 
[Verse   1]
I   fell   down   the   stairs
Tripped   over   carpet   that's   no   longer   there
Into   a   hallway   of   nameless   faces
It's   tasteless,   but   I   just   need   to   feel   alive
 
[Chorus]
Oh   my,   all   my   friends   are   going   to   lose   their   minds   tonight
Oh   my,   all   my   friends   are   going   to   lose   their   minds   tonight
 
[Verse   2]
Can   I   just   lay   here   so   I   can   sink   into   disorder?
It's   about   time
Can   I   just   stay   here   changing   reflections   in   the   mirror?
I   clawed   up   the   stairs,   fucked   up   the   hardwood   with   my   fingernails
All   I   need   to   believe   is   indeed   there's   relief   for   these   feelings   somewhere   in   sight
 
[Chorus]
Oh   my,   I've   gone   and   lost   my   mind   tonight
Oh   my,   I've   gone   and   lost   my   mind   tonight
 
[Interlude]
 
[Bass   Fill]
G|-----------------------|
D|-----------------------|
A|--5-5-4-4--------------|
E|----------5-5-7-7-5----|
 
[Lead   Part]
e|-9h10p9-----------9h10p9---------------------|
B|--------10---------------10------------------|
G|-----------11-9-------------11-9----9----9---|
D|---------------------------------11---11-----|   x2
A|---------------------------------------------|
E|---------------------------------------------|
 
[Verse   3]
It's   not   my   bed   but   for   tonight   it   'ought   to   get   me   through
An   honest   conversation   with   myself   is   about   to   ensue
I   feel   the   skin   stuck   to   my   bones   starting   to   come   unglued
Blood   pressure's   rising,   and   my   veins   are   starting   to   protrude
Oh,   is   that   the   panic   setting   in?   Where   do   I   begin?
I   can't   explain   every   thought,   every   touch,   every   sound   that   this   house   has   made
Open   the   window   I   need   air   because   I'm   losing   it
Wait,   can   you   close   it?   Because   I'm   liable   to   jump
 
[Outro]
 
 

 
|   x    Dead   note
|   h    Hammer-on

Editor: Risky Adidaya